Forum o metalu i rocku

http://forumometaluirocku.forumotion.com/index.htm
 
HomeFAQSearchMemberlistUsergroupsRegisterLog in

Share | 
 

 Tablature.......

Go down 
AuthorMessage
Rocker

avatar

Number of posts : 142
Registration date : 2008-09-06

PostSubject: Tablature.......   Thu Jan 01, 2009 7:10 pm

Ovde cemo da stavljamo tablature!Mozete i da trazite!


SWEET CHILD O MINE


----------------14----13---------------------14-----14---------
-------14---------------------------14-------------------------
----------13-------13----13------------13--------13----13------
---11--------11-----------------11--------11-------------------
---------------------------------------------------------------
---------------------------------------------------------------

----------------14----13---------------------14-----14---------
-------14---------------------------14-------------------------
----------13-------13----13------------13--------13----13------
---13--------11-----------------13--------11-------------------
---------------------------------------------------------------
---------------------------------------------------------------

------------------14----13---------------------14-----14-------
-------14---------------------------14-------------------------
----11------13-11----13----13----11----13-11-------13----13----
---------------------------------------------------------------
---------------------------------------------------------------
---------------------------------------------------------------

----------------14----13---------------------14-----14---------
-------14---------------------------14-------------------------
----------13-------13----13------------13--------13----13------
---11--------11-----------------11--------11-------------------
---------------------------------------------------------------
---------------------------------------------------------------

Part 2 - only play this 1 time

----------------14----13---------------------14-----14---------
-------14---------------------------14-------------------------
----------13-------13----13------------13--------13----13------
---11--------11-----------------11--------11-------------------
---------------------------------------------------------------
---------------------------------------------------------------

----------------14----13---------------------14-----14---------
-------14---------------------------14-------------------------
----------13-------13----13------------13--------13----13------
---13--------11-----------------13--------11-------------------
---------------------------------------------------------------
---------------------------------------------------------------

------------------14----13---------------------14-----14-------
-------14---------------------------14-------------------------
----11------13-11----13----13----11----13-11-------13----13----
---------------------------------------------------------------
---------------------------------------------------------------
---------------------------------------------------------------

Part 3 - played just before the words come in.
--11----11-13-14-13-11-14--------------------------------------
-----14--------------------------------------------------------
---------------------------------------------------------------
---------------------------------------------------------------
---------------------------------------------------------------
---------------------------------------------------------------

Intro - guitar 2 part
---------------------------------------------------------------
---------------------------------------------------------------
--------------3------------------------------------------------
------3-3h4-6---6-4-3----4-2p1---2p1--------4----4p3---4p3-----
----4------------------6-------2-----2-4--4----4-----4-----4---
---------------------------------------------------------------

Part 2 - chords - strum how you think it fits.

---------------------------------------------------------------
---------------------------------------------------------------
----6------4-------------6-------------------------------------
----6------4------4------6-------------------------------------
----4------2------4------4-------------------------------------
------------------2--------------------------------------------
Back to top Go down
View user profile
.......METAL KING........

avatar

Number of posts : 575
Registration date : 2008-09-04

PostSubject: Re: Tablature.......   Thu Jan 01, 2009 8:21 pm

Ocu Vajlens Revoluson Smile
Back to top Go down
View user profile
Cipiripi Igor
Administrator
Administrator
avatar

Number of posts : 391
Age : 23
: Tamo negde.....
Registration date : 2008-08-13

PostSubject: Re: Tablature.......   Thu Jan 01, 2009 9:36 pm

Pustite to,skidajte sluhovno.

_________________


Back to top Go down
View user profile http://parkzabave.clic-topic.com
.......METAL KING........

avatar

Number of posts : 575
Registration date : 2008-09-04

PostSubject: Re: Tablature.......   Thu Jan 01, 2009 11:51 pm

Cipiripi Igor wrote:
Pustite to,skidajte sluhovno.
SLuhovno da skinem ono?!? Si prs'o??!? Ono je pre cista distorzija tamo nemozes da povatas sta je otsviroa, stavljaj to bre Smile
Back to top Go down
View user profile
Rocker

avatar

Number of posts : 142
Registration date : 2008-09-06

PostSubject: Re: Tablature.......   Fri Jan 02, 2009 12:16 pm

VIOLENT REVOLUTION



Riff A.1 [0:00]
|------------------------------------------------------|
|------------------------------------------------------|G
|--------7---------------------7-----------------------|t
|----------10-9~----2-4----------10-9~--7--------2---4-|r
|-2--/7-----------5-0-2-5--/7-------------10\----0-5-2-|1
|-0---------------3-----3--------------------------3---|
|
|
|------------------------------------------------------|
|------------------------------------------------------|G
|------------------------------------------------------|t
|-------------------2-4--------------------------2---4-|r
|-2-----(2)-------5-0-2-5------(5)-----------5\2-0-5-2-|2
|-0-----(0)-------3-----3------(3)-----------3\0---3---|


Riff A.2 [0:07]
|------------------------------------------------------|
|------------------------------------------------------|G
|--------7---------------------7--------9\-------------|t
|----------10-9~----2-4----------10-9~-----------2---4-|r
|-2--/7-----------5-0-2-3--/7--------------------0-5-2-|1
|-0---------------3-----1--------------------------3---|
|
|
|------------------------------------------------------|
|------------------------------------------------------|G
|------------------------------------------------------|t
|-------------------2-4--------------------------2---4-|r
|-2-----(2)-------5-0-2-3------(3)-----------5\2-0-5-2-|2
|-0-----(0)-------3-----1------(1)-----------3\0---3---|


Riff A.1 [0:13]
Riff A.2 [0:20]

Riff B.1 [0:26]
|-----------------------------------|---|---|---------------------------------|G
|-----------------------------------|---|---|---------------------------------|t
|*---------------------------------*|-*-|-*-|---------------------------------|r
|*-------------------------------2-*|-*-|-*-|-------------------------------2-|1
|--5\2-----------------------3p2-0--|---|---|-5/7-----------------------3P2-0-|+
|--3\0-0-0-000-0-0-000-0-0-0-1p0----|---|---|-3/5-5-5-555-5-5-555-5-5-5-1P0---|2
. . ... . . ... . . . . . ... . . ... . . .

Riff B.2 [0:40]
|-----------------------------------|---|---|---------------------------------|
|-----------------------------------|---|---|---------------------------------|G
|*---------------------------------*|-*-|-*-|---------------------------------|t
|*-------------------------------2-*|-*-|-*-|---------------------------------|r
|--5\2-----------------------3p2-0--|---|---|-5/7-----------------------------|1
|--3\0-0-0-000-0-0-000-0-0-0-1p0----|---|---|-3/5-5-5-555-5-5-555-5-5-555-555-|
| . . ... . . ... . . . . . ... . . ... . . ... ...
|
|-----------------------------------|---|---|---------------------------------|
|-----------------------------------|---|---|---------------------------------|G
|*---------------------------------*|-*-|-*-|---------------------------------|t
|*-------------------------------2-*|-*-|-*-|-------------------------------2-|r
|--5\2-----------------------3p2-0--|---|---|-5/7-----------------------3P2-0-|2
|--3\0-0-0-000-0-0-000-0-0-0-1p0----|---|---|-3/5-5-5-555-5-5-555-5-5-5-1P0---|
. . ... . . ... . . . . . ... . . ... . . .

Riff C [0:53]
|----------------------------------|--------------------------------|---|--------------------------------|G
|----------------------------------|--------------------------------|---|--------------------------------|t
|*--------------------------------*|--------------------------------|-*-|--------------------------------|r
|*----------------------------2h3-*|----------------------------2h3-|-*-|-------------------3-3------2-2-|1
|--5\2--2-2-333--2-2-555--2-3-0h1--|-5\2--2-2-333--2-2-555--2-3-----|---|-5\2--2-2-333--2-2-1-1------0-0-|+
|--3\0--0-0-111--0-0-333--0-1------|-3\0--0-0-111--0-0-333--0-1-----|---|-3\0--0-0-111--0-0-----0000-----|2
. . ... . . ... . . ... . . ... # . . ... . . ....

Riff B.1 [1:07]
Riff B.2 [1:20]
Riff C [1:33]

Riff D.1 [1:47]
|----------------------------------|---------|---------|
|----------------------------------|---------|---------|G
|----------------------------------|---------|---------|t
|----------------------------------|---------|---------|r
|---3-3p2-----3-2h3-5-5/7-------2~-|---2-3-5-|---2h3p2-|1
|-0-------3-0-------------0-3h5----|-3-------|-3-------|


Riff D.1

Riff D.2 [2:00]
|----------------------------------|---------|---------|
|----------------------------------|---------|---------|G
|----------------------------------|---------|---------|t
|----------------------------------|---------|---------|r
|---3-3p2-----3-2h3-5-5/7-------2~-|---2-3-5-|---2h3p2-|1
|-0-------3-0-------------0-3h5----|-3-------|-3-------|
|
|
|------------------------------------------------------|
|------------------------------------------------------|G
|------------------------------------------------------|t
|------------------------------------------------------|r
|------------------------------------------------------|2
|------------------------------------------------------|


Riff E.1 [2:13]
|-------------------------------------------------------------------------------|G
|-------------------------------------------------------------------------------|t
|-------------------------------------------------------------------------------|r
|--------5-----2--3----------5-------------------5-----2--3---2-3-------------5-|1
|-5-2--3-3--5--0--1---5-2--3-3--5--3--2---5-2--3-3--5--0--1---0-1--5-3--2--5--3-|+
|-3-0--1----3---------3-0--1----3--1--0---3-0--1----3--------------3-1--0--3----|2
. . . .

Riff E.1 [2.27]

Riff E.2 [2:40]
|-------------------------------------------------------------------------------|
|------------------------------12-11--------------------------------------------|G
|/13-11-13-11---------13-11-13-------11---11h13p11~-----------------------------|t
|-------------14-13-------------------------------------------13h14p13~---------|r
|-------------------------------------------------------------------------------|1
|-------------------------------------------------------------------------------|
|
|
|-------------------------------------------------------------------------------|
|-------------------------------------------------------------------------------|G
|--------5-----2--3----------5-------------------5-----2--3---2-3-------------5-|t
|-5-2--3-3--5--0--1---5-2--3-3--5--3--2---5-2--3-3--5--0--1---0-1--5-3--2--5--3-|r
|-3-0--1----3---------3-0--1----3--1--0---3-0--1----3--------------3-1--0--3----|2
|-------------------------------------------------------------------------------|
| . . . .
|
|-------------------------------------------------------------------------------|
|---------------------8-6~-8-6~-----------8-6~-8-6~-----------8-6~-8-6~---------|G
|--------------------------------8~--7~--------------8~--7~--------------8~--7~-|t
|-------------------------------------------------------------------------------|r
|-------------------------------------------------------------------------------|3
|-------------------------------------------------------------------------------|


Riff E.3 [2:53]
|-------------------------------------------------------------------------------|
|-------------------------------------------------------------------------------|G
|--------5-----2--3----------5-------------------5-----2--3---2-3-------------5-|t
|-5-2--3-3--5--0--1---5-2--3-3--5--3--2---5-2--3-3--5--0--1---0-1--5-3--2--5--3-|r
|-3-0--1----3---------3-0--1----3--1--0---3-0--1----3--------------3-1--0--3----|2
|-------------------------------------------------------------------------------|
| . . . .
| solo
|--------------------------------------------------------------------------------------------------|
|--------------------------------------------------------------------------------------------------|
|--------------------------------------------------------------------------------------------------|
|--------------------------------------------------------------------------------------------------|
|--------------------------------------------------------------------------------------------------|
|--------------------------------------------------------------------------------------------------|


Riff A.1 [3:07]
Riff A.2 [3:13]
Riff A.1 [3:20]
Riff A.2 [3:27]
Riff C [3:33]
Riff C [3:46]

Riff F [4:00]
|-12~----10~-----------------------12~----10~-----------------------|
|---------------13~---10~------------------------13~----------------|G
|---------------------------10h12----------------------10~----10h12-|t
|-------------------------------------------------------------------|r
|-------------------------------------------------------------------|1
|-------------------------------------------------------------------|
|
|
|-------------------------------------------------------------------|
|-------------------------------------------------------------------|G
|-------------------------------------------------------------------|t
|-----------------------------------------------------------------2-|r
|------7-------7-------7-------7-5------3-------3-------3-------3-0-|2
|-5555-5--5555-5--5555-5--5555-5-3-1111-1--1111-1--1111-1--1111-1---|
.... .... .... .... .... .... .... ....

|-12~----10~-----------------------------------------------------|
|---------------13~---12~----------------------------------------|G
|---------------------------12-12h14-14~-------------------------|t
|-----------------------------------------12"17"15"14-12"17"15"14|r
|----------------------------------------------------------------|1
|----------------------------------------------------------------|
| .....................
|
|----------------------------------------------------------------|
|----------------------------------------------------------------|G
|----------------------------------------------------------------|t
|----------------------------------------------------------------|r
|------5-------5-------6-------6-------7-------7-------7-------7-|2
|-3333-3--3333-3--4444-4--4444-4--5555-5--5555-5--5555-5--5555-5-|
.... .... .... .... .... .... .... ....

|-12~----10~-----------------------12~----10~-----------------------|
|---------------13~---10~------------------------13~----------------|G
|---------------------------10h12----------------------10~----10h12-|t
|-------------------------------------------------------------------|r
|-------------------------------------------------------------------|1
|-------------------------------------------------------------------|
|
|
|-------------------------------------------------------------------|
|-------------------------------------------------------------------|G
|-------------------------------------------------------------------|t
|-----------------------------------------------------------------2-|r
|------7-------7-------7-------7-5------3-------3-------3-------3-0-|2
|-5555-5--5555-5--5555-5--5555-5-3-1111-1--1111-1--1111-1--1111-1---|
.... .... .... .... .... .... .... ....

|-12~----10~-----------------------------------------------------|
|---------------13~---12~----------------------------------------|G
|---------------------------12-12h14-14~-------------------------|t
|----------------------------------------------------------------|r
|----------------------------------------------------------------|1
|----------------------------------------------------------------|
|
|
|----------------------------------------------------------------|
|----------------------------------------------------------------|G
|----------------------------------------------------------------|t
|----------------------------------------------------------------|r
|------5-------5-------6-------6-------7-------7-------7-------7-|2
|-3333-3--3333-3--4444-4--4444-4--5555-5--5555-5--5555-5--5555-5-|
.... .... .... .... .... .... .... ....
Back to top Go down
View user profile
.......METAL KING........

avatar

Number of posts : 575
Registration date : 2008-09-04

PostSubject: Re: Tablature.......   Fri Jan 02, 2009 3:52 pm

Super samo kada bi znao da citam to Smile
Back to top Go down
View user profile
Cipiripi Igor
Administrator
Administrator
avatar

Number of posts : 391
Age : 23
: Tamo negde.....
Registration date : 2008-08-13

PostSubject: Re: Tablature.......   Fri Jan 02, 2009 4:47 pm

.......METAL KING........ wrote:
Cipiripi Igor wrote:
Pustite to,skidajte sluhovno.
SLuhovno da skinem ono?!? Si prs'o??!? Ono je pre cista distorzija tamo nemozes da povatas sta je otsviroa, stavljaj to bre Smile


Kako Nikola moze ?!

_________________


Back to top Go down
View user profile http://parkzabave.clic-topic.com
.......METAL KING........

avatar

Number of posts : 575
Registration date : 2008-09-04

PostSubject: Re: Tablature.......   Fri Jan 02, 2009 7:03 pm

Cipiripi Igor wrote:
.......METAL KING........ wrote:
Cipiripi Igor wrote:
Pustite to,skidajte sluhovno.
SLuhovno da skinem ono?!? Si prs'o??!? Ono je pre cista distorzija tamo nemozes da povatas sta je otsviroa, stavljaj to bre Smile


Kako Nikola moze ?!
On je Rock Mozzart..... ja nisam, ja sam samo obican smrtink, i pod onom kolicinom distorzije da sliknem bilo sta..... tesko.. sem i ako ja ne postanem Mozazart Smile
Back to top Go down
View user profile
Rocker

avatar

Number of posts : 142
Registration date : 2008-09-06

PostSubject: Re: Tablature.......   Sun Jan 04, 2009 1:23 pm

.......METAL KING........ wrote:
Super samo kada bi znao da citam to Smile
Neznam ni ja! Very Happy Very Happy Very Happy
Back to top Go down
View user profile
.......METAL KING........

avatar

Number of posts : 575
Registration date : 2008-09-04

PostSubject: Re: Tablature.......   Mon Jan 05, 2009 12:29 am

Provlaio sam kako, smao kako da znam sta se svira u isto vreme? To ej greska, ne ppravolnop je, uci se iz notnih zapisa io124iuj
Back to top Go down
View user profile
King Randy
WebMaster
WebMaster
avatar

Number of posts : 448
Registration date : 2008-08-09

PostSubject: Re: Tablature.......   Mon Jan 05, 2009 4:55 pm

Streberi....kez

Salim se,ucite ucite
Back to top Go down
View user profile http://forumometaluirocku.forumotion.com
Sponsored content




PostSubject: Re: Tablature.......   

Back to top Go down
 
Tablature.......
Back to top 
Page 1 of 1
 Similar topics
-
» Runners High Chords
» Shunkan Sentimental Guitar Pro Tab
» SCANDAL - Koe Chords
» POKMON IERU KA NA? simple guitar tablature

Permissions in this forum:You cannot reply to topics in this forum
Forum o metalu i rocku  :: Instrumenti i muzicka oprema :: Gitara-
Jump to: